Sound Sample

Dropped D Tuning (DADGBE)

Guitar Intro

E|--10-----12--10----9-----10--9----|--7-----9--7----5-----7--5----|
B|----------------------------------|------------------------------|
G|--11-----11--------9------9-------|--7-----7-------6-----6-------|
D|------0---------0-----0--------0--|-----0-------0-----0-------0--|
A|----------------------------------|------------------------------|
D|----------------------------------|------------------------------|
             Po              Po               Po            Po 

  
E|--3------5--3-----2------3--2----|--0-------0-------0------------|
B|---------------------------------|-------------------------------|
G|--4------4--------2------2-------|--0-------2-------2------2-----|
D|-----0---------0-----0--------0--|------0-------0------0------0--|
A|---------------------------------|-------------------------------|
D|---------------------------------|-------------------------------|
            Po              Po               

  
E|--3-------5--3-----2-----3--2----|--0-------0-------2--0---------|
B|---------------------------------|-------------------------------|
G|--4-------4--------2-----2-------|--0-------2-------2------------|
D|------0---------0-----0-------0--|------0-------0--------0-------|
A|---------------------------------|-------------------------------|
D|---------------------------------|--------------------------0----|
             Po             Po                         Po


E|--3-----5--3----2-----3--2----|--0---------0-----------|
B|------------------------------|------------------------|
G|--4-----4-------2-----2-------|--0---------2-----------|
D|-----0-------0-----0-------0--|-------0---------0------|
A|------------------------------|------------------------|
D|------------------------------|------------------------|
           Po            Po


E|--2--0--------2--0---------|--2--0---------2--0--------|
B|---------------------------|---------------------------|
G|--2-----------2------------|--2------------2-----------|
D|-------0-----------0-------|-------0------------0------|
A|---------------------------|---------------------------|
D|----------0-----------0----|----------0------------0---|
     Po          Po              Po           Po


Sound Sample

Verse

E|---3----3-----2-----2-----|--0-----0-----0-----2-----|
B|--------------------------|--------------------------|
G|---4----4-----2-----2-----|--0-----0-----2-----2-----|
D|-----------0-----0-----0--|-----0-----0-----0-----0--|
A|--------------------------|--------------------------|
D|--------------------------|--------------------------|



E|--3-----3-----2-----2-----|--0-----0-----2-----------|
B|--------------------------|--------------------------|
G|--4-----4-----2-----2-----|--0-----2-----2-----2-----|
D|-----0-----0-----0-----0--|-----0-----0-----0-----0--|
A|--------------------------|--------------------------|
D|--------------------------|--------------------------|



E|--3-----3-----2-----2-----|--0-----0-----0-----2-----|
B|--------------------------|--------------------------|
G|--4-----4-----2-----2-----|--0-----0-----2-----2-----|
D|-----0-----0-----0-----0--|-----0-----0-----0-----0--|
A|--------------------------|--------------------------|
D|--------------------------|--------------------------|



E|--3-----3-----2-----2-----|--0-----0-----2-----------|
B|--------------------------|--------------------------|
G|--4-----4-----2-----2-----|--0-----2-----2-----2-----|
D|-----0-----0-----0-----0--|-----0-----0-----0-----0--|
A|--------------------------|--------------------------|
D|--------------------------|--------------------------|



E|--3-----3-----3-----3-----|--2-----2-----0-----2-----|
B|--------------------------|--------------------------|
G|--5-----5-----4-----4-----|--2-----2-----0-----2-----|
D|-----0-----0-----0-----0--|-----0-----0-----0-----0--|
A|--------------------------|--------------------------|
D|--------------------------|--------------------------|



E|--3-----3-----3-----3-----|--2-----0-----2-----------|
B|--------------------------|--------------------------|
G|--5-----5-----4-----4-----|--2-----0-----2-----2-----|
D|-----0-----0-----0-----0--|-----0-----0-----0-----0--|
A|--------------------------|--------------------------|
D|--------------------------|--------------------------|



E|--5-----5-----5-----5-----|--3-----3-----2-----------|
B|--------------------------|--------------------------|
G|--7-----7-----6-----6-----|--4-----4-----2-----2-----|
D|-----0-----0-----0-----0--|-----0-----0-----0-----0--|
A|--------------------------|--------------------------|
D|--------------------------|--------------------------|



E|--2-----2-----0-----0-----|--2-----2----------------|
B|--------------------------|-------------------------|
G|--2-----2-----0-----0-----|--2-----2----------------|
D|-----0-----0-----0-----0--|-----0-----0-------------|
A|--------------------------|-------------------------|
D|--------------------------|--------------0----------|


Sound Sample

Instrumental Break


E|------10--9--7--9--10----7-|--------7---------------|
B|--10-----------------------|--10---------7----10----|
G|---------------------------|------------------------|
D|---------------------------|------------------------|
A|---------------------------|------------------------|
D|---------------------------|------------------------|


   
E|--7-----------10----9-10---|------------------------|
B|-----10--8-----------------|---10------------8--7---|
G|---------------------------|------------------------|
D|---------------------------|------------------------|
A|---------------------------|------------------------|
D|---------------------------|------------------------|


  
E|------7--------------|-------------------10--7--|-----------------------|
B|----------10----8----|--10---8-7---8-10---------|--8---7--8--10----10---|
G|--9------------------|--------------------------|-----------------------|
D|---------------------|--------------------------|-----------------------|
A|---------------------|--------------------------|-----------------------|
D|---------------------|--------------------------|-----------------------|




 
E|--------------|--2--0---------2--0---------|--2--0---------2--0---------|
B|--------------|----------------------------|----------------------------|
G|--7-----------|--2------------2------------|--2------------2------------|
D|--------------|-------0------------0-------|-------0------------0-------|
A|--------------|----------------------------|----------------------------|
D|--------------|----------0------------0----|----------0------------0----|
                    Po           Po              Po           Po
Return To Main Page