Sound Sample

Guitar Intro

      Bm                                 E7            D

 E|----2-----------------------2----------0------------2---------------|
 B|--------3--------------3-------3-------0------------3---------------|
 G|------------4-------4------------------1------------2---------------|
 D|----------------4----------------------0------------0---------------|
 A|---------------------------------------2----------------------------|
 E|--------------------------------------------------------------------|


       Bm                                 D5           E 

 E|----2----------------------2----------5-------------4---------------|
 B|--------3--------------3-------3------3-------------5---------------|
 G|------------4-------4-----------------2-------------4---------------|
 D|----------------4---------------------------------------------------|
 A|--------------------------------------------------------------------|
 E|--------------------------------------------------------------------|


Sound Sample

Instrumental Break

 E|----2----------------------2-----------0------------2---------------|
 B|--------3--------------3-------3-------0------------3---------------|
 G|------------4-------4------------------1------------2---------------|
 D|----------------4----------------------0------------0---------------|
 A|---------------------------------------2----------------------------|
 E|--------------------------------------------------------------------|


                                                  

 E|----2----------------------2-----------5------------4---------------|
 B|--------3--------------3-------3-------3------------5---------------|
 G|------------4-------4------------------2------------4---------------|
 D|----------------4---------------------------------------------------|
 A|--------------------------------------------------------------------|
 E|--------------------------------------------------------------------|




 E|----2----------------------2---------2-----------------------2------|
 B|--------3--------------3-------3---------3---------------3-------3--|
 G|------------4-------4------------------------4-------4--------------|
 D|----------------4--------------------------------4------------------|
 A|--------------------------------------------------------------------|
 E|--------------------------------------------------------------------|



 E|----2----------------------2--------2-------------------------------|
 B|--------3--------------3-------3--------3------------0--3---5---3---|
 G|------------4-------4-----------------------4--2--1-----------------|
 D|----------------4---------------------------------------------------|
 A|--------------------------------------------------------------------|
 E|--------------------------------------------------------------------|
                                                             Sl




 E|--------------------|
 B|---2----------------|
 G|-------2-------4----|
 D|-----------4--------|
 A|--------------------|
 E|--------------------|


Sound Sample

Backing Riff


 E|--------------------------------------------------------------------|
 B|--------------------------------------------------------------------|
 G|-------------7---------7---------7-----7----6----6----6----7--------|
 D|-------------7---------7---------7-----7----7----7----7----7--------|
 A|----0----0--------0---------0---------------------------------------|
 E|--------------------------------------------------------------------|
       M    M        M         M                                (Repeat) 
Return To Main Page