Sound Sample

Main Riff

E|--------------------------------------------------------|
B|--------------------------------------------------------|
G|--------------------------------------------------------|
D|--------------------------------------------------------|
A|-12--12-12-12-12-12-12-12-12-11--9-9-9-9-9-9-9-9-9--11--|
E|-10--10-10-10-10-10-10-10-10--9--7-7-7-7-7-7-7-7-7---9--|
                                                   (Repeat)


Sound Sample

Chorus

E|--------------------------------------------------------|
B|--------------------------------------------------------|
G|--------------------------------------------------------|
D|--------------------------------------------------------|
A|---5---5-5-5-5-5-5-5-5---6----7---7-7-7-7-7-7-7-----7---|
E|---3---3-3-3-3-3-3-3-3---4----5---5-5-5-5-5-5-5-----5---|


Sound Sample

Solo


E|--------------------------------------------------------|
B|----------------10---10---10---10---10---10---10---10---|
G|------------10--12--(14)-(14)-(14)-(14)-(14)-(14)-(12)--|
D|------------10------------------------------------------|
A|--------12----------------------------------------------|
E|-10--10-------------------------------------------------|
                      BU                           BD



E|--------------------------------------------------------|
B|----------------7---7----7----7----7----7----7-----7----|
G|------------7---9--(11)-(11)-(11)-(11)-(11)-(11)--(9)---|
D|------------7-------------------------------------------|
A|---------9----------------------------------------------|
E|-7---7--------------------------------------------------|
                   BU                             BD


Sound Sample

Outro

E|------------------------------|
B|------------------------------|
G|------------------------------|
D|------------------------------|
A|-7-7-7-5-5-5--9--10--11--12---|
E|-5-5-5-3-3-3--7---8---9--10---|


Return To Main Page