Sound Sample

Chord Progression


 (E)          (A)  (B)   (E)       (A) (B)
 E|-------------------------------------------|
 B|--9---9--9-------------9---9--9------------|
 G|--9---9--9--6----8--8--9---9--9--6---8--8--|
 D|--9---9--9--7----9--9--9---9--9--7---9--9--|
 A|--7---7--7--7----9--9--7---7--7--7---9--9--|
 E|------------5----7--7------------5---7--7--|



    (E)       (A)   (B)  (E)    (B)
 E|-------------------------------------------|
 B|--9---9--9-------------9-------------------|
 G|--9---9--9--6----8--8--9------8-8-8-8-8-8--|
 D|--9---9--9--7----9--9--9------9-9-9-9-9-9--|
 A|--7---7--7--7----9--9--7------9-9-9-9-9-9--|
 E|------------5----7--7---------7-7-7-7-7-7--|
                                       (Repeat)


Sound Sample

Bass Line

 E|-------------------------------------------|
 B|-------------------------------------------|
 G|-----------6-------------------------------|
 D|-----6--9-----------------------------6--9-|
 A|--7--------------4--7-----6--9--6--7-------|
 E|--------------5--------7-------------------|




 E|-------------------------------------------|
 B|-------------------------------------------|
 G|--6--------------------------------6-------|
 D|-----------------------------6--9----------|
 A|--------4--7-----6--9--6--7--------------4-|
 E|-----5--------7-----------------------5----|





 E|-------------------------------------------|
 B|-------------------------------------------|
 G|-------------------------------------------|
 D|-----------------9-------------------------|
 A|--7-----6--9--6--7----------9-9-9-9-9-9----|
 E|-----7----------------------7-7-7-7-7-7----|
                                       (Repeat)


Sound Sample

Lead Line


Return To Main Page
 E|--4---3--4--4-----5--------7--------5------|
 B|--5---4--5-----5-----5--------5--------5---|
 G|--4---3--4--------------4--------4---------|
 D|-------------------------------------------|
 A|-------------------------------------------|
 E|-------------------------------------------|
          Sl




 E|--4---3--4--4-----5--------7--------5------|
 B|--5---4--5-----5-----5--------5--------5---|
 G|--4---3--4--------------4--------4---------|
 D|-------------------------------------------|
 A|-------------------------------------------|
 E|-------------------------------------------|
          Sl




 E|--4---3--4--4-----5--------7--------5------|
 B|--5---4--5-----5-----5--------5--------5---|
 G|--4---3--4--------------4--------4---------|
 D|-------------------------------------------|
 A|-------------------------------------------|
 E|-------------------------------------------|
          Sl



 E|--4-------------------------|
 B|--5-------------------------|
 G|--4-----------4-4-4-4-4-4---|
 D|--------------4-4-4-4-4-4---|
 A|--------------2-2-2-2-2-2---|
 E|----------------------------|