Sound Sample
 E|--------------------------------------|
 B|--------------------------------------|
 G|--------------------------------------|
 D|--------------------------------------|
 A|--4--4--4--2-----2--4--4--4--4--4--2--|
 E|--------------2-----------------------|
            Po                      Po


 E|--------------------------------------|
 B|--------------------------------------|
 G|--------------------------------------|
 D|--------------------------------4-----|
 A|-----2-----4--4--4--2-----2--4--------|
 E|--2-----2--------------2--------------|
                     Po


 E|-----------------------|
 B|-----------------------|
 G|-----------------------|
 D|--2-----4--4--4--2-----|
 A|-----2--------------2--|
 E|-----------------------|
                  Po      (Repeat)



Sound Sample
 E|------------------------------------------|
 B|--6---X---X---X---X---4---4---------------|
 G|--6---X---X---X---X---4---4---------------|
 D|--6---X---X---X---X---4---4---------------|
 A|--4---X---X---X---X---2---2-------2---4---|
 E|------------------------------4-----------|
                                      (Repeat)


Useful Tip

To achieve the effect that I have marked with an X on the tab, place your left hand lightly over all the strings on the fretboard and strum the strings quite hard.

Return To Main Page