Sound Sample

 E|--------------------------------------------------|
 B|--------3-----------------3------------------0----|
 G|-----------2--0--------------0---------------0----|
 D|--0--0--------------------------0------------0----|
 A|-----------------3--0--3--------------------------|
 E|-----------------------------------3--0--3--------|




 E|--------------------------------------------------|
 B|--------------------------------3-----------------|
 G|--------------------2--0-----------2--0-----------|
 D|--------0--2--0-----------0--0--------------------|
 A|--0--2-----------2-----------------------3--0--3--|
 E|--------------------------------------------------|
            H  Po       Po



 E|-------------------------------------------------|
 B|---3------------------0--------------------------|
 G|------0---------------0---2--0--0--4--0--0---5---|
 D|---------0------------0--------------------------|
 A|-------------------------------------------------|
 E|------------3--0--3------------------------------|
                              Po       Po       BU





Sound Sample
 E|-----2--------------0----------------------------|
 B|-----3--------------3-----------3----------------|
 G|-----2--------------0-----------0-----------0--0-|
 D|--0-----0--------------0--------0--------0-------|
 A|-----------3--0--3--------------X--0--2----------|
 E|--------------------------3--3--3----------------|
                                       H



 E|----------2--------------0-----------------------|
 B|----------3--------------3-----------3--------3--|
 G|----------2--------------0-----------0--------0--|
 D|-------0-----0--------------0--------0--------0--|
 A|-0--2-----------3--0--3--------------X--------X--|
 E|-------------------------------3--3--3--3--3--3--|
     H                                       (Repeat)





Sound Sample
 E|-------------------------------------------------|
 B|-------------------------------------------------|
 G|-----------7-7-----------5-5--------------0--12--|
 D|-----------7-7-----------5-5--------------0--12--|
 A|--7--8--9-------9--5--7-------7--0--1--2-----12--|
 E|-------------------------------------------------|
      H  H             H             H  H      Harm.

Useful Tip

Harm - To play harmonic notes, place your finger lightly on the strings at the 12th fret. This should produce a ringing effect.



Check Out The Full Solo Transcriptions.

Return To Main Page