Sound Sample
 E|---------------------------------------------------|
 B|---------------------------------------------------|
 G|---------------------------------------------------|
 D|-------5-----------------5-------------------------|
 A|-----------4-----------------4-(5)-4----5----------|
 E|---3-----------------3------------------3----------|
              (Hold)            (Trill)    (Hold)

Sound Sample
 E|---------------------------------------------------|
 B|---------------------------------------------------|
 G|---------------------------------------------------|
 D|---------------------------------------------------|
 A|-------------------3---5---6---3---5-------3---5---|
 E|---3---3---3---6-----------------------6-----------|

To get the right effect for the Main Riff you have to Mute the strings.To achieve this effect place your right hand lightly over the strings near the bridge of the guitar.

Return To Main Page