Sound Sample


Intro
   (Guitar 1 - Clean) - Pan Left Channel
 E|---------------------------------------------------------------|
 B|----------12-----------12----------12----------12----------12--|
 G|------12-----------12----------12----------12----------12------|            
 D|--12-----------12----------12----------12----------12----------|
 A|---------------------------------------------------------------|
 E|---------------------------------------------------------------|
                                                                  | 
   (Guitar 2 - Overdrive) - Pan Right Channel                     | 
 E|---------------------------------------------------------------|
 B|---------------------------------------------------------------|
 G|---------------------------------------------------------------|
 D|---------------------------------------------------------------|
 A|---------------------------------------------------------------|
 E|---------------------------------------------------------------|

                                                      



    (Guitar 1)
 E|---------------------------------------------------------------|
 B|----------5-----------5-----------5-----------5-----------5----|
 G|------5-----------5-----------5-----------5-----------5--------|
 D|--5-----------5-----------5-----------5-----------5------------|
 A|---------------------------------------------------------------|
 E|---------------------------------------------------------------|
                                                                  |
    (Guitar 2)                                                    |
 E|---------------------------------------------------------------|
 B|---------------------------------------------------------------|
 G|---------------------------------------------------------------|
 D|---------------------------------------------------------------|
 A|---------------------------------------------------------------|
 E|--------------------------------------------------8------------|
                                                     Sl  
                                                                                                                           



    (Guitar 1)                                                              
 E|---------------------------------------------------------------|
 B|----------12-----------12----------12----------12----------12--|
 G|------12-----------12----------12----------12----------12------|             
 D|--12-----------12----------12----------12----------12----------|
 A|---------------------------------------------------------------|
 E|---------------------------------------------------------------|
                                                                  |
   (Guitar 2)                                                     |
 E|---------------------------------------------------------------|
 B|---------------------------------------------------------------|
 G|---------------------------------------------------------------|
 D|---------------------------------------------------------------|
 A|---------------------------------------------------------------|
 E|--3------------------------------------------------8-----------|
                                                      Sl




    (Guitar 1)
 E|---------------------------------------------------------------|
 B|----------5-----------5-----------6-----------5-----------5----|
 G|------5-----------5-----------5-----------5-----------5--------|
 D|--5-----------5-----------5-----------5-----------5------------|
 A|---------------------------------------------------------------|
 E|---------------------------------------------------------------|
                                                                  |
   (Guitar 2)                                                     |
 E|---------------------------------------------------------------|
 B|---------------------------------------------------------------|
 G|---------------------------------------------------------------|
 D|---------------------------------------------------------------|
 A|---------------------------------------------------------------|
 E|--3-----------------------------------------------8------------|
                                                     Sl




    (Guitar 1)
 E|---------------------------------------------------------------|
 B|----------7-----------7-----------8-----------7-----------7----|
 G|------7-----------7-----------7-----------7-----------7--------|
 D|--7-----------7-----------7-----------7-----------7------------|
 A|---------------------------------------------------------------|
 E|---------------------------------------------------------------|
                                                                  |
                                                                  | 
    (Guitar 2)                                                    |
 E|---------------------------------------------------------------|
 B|---------------------------------------------------------------|
 G|---------------------------------------------------------------|
 D|---------------------------------------------------------------|
 A|---------------------------------------------------------------|
 E|--10----------------------------------------------10-----------|
                                                     Sl





   (Guitar 1)
 E|---------------------------------------------------------------|
 B|----------2-----------2-----------3-----------2-----------2----|
 G|------2-----------2-----------2-----------2-----------2--------|
 D|--2-----------2-----------2-----------2-----------2------------|
 A|---------------------------------------------------------------|
 E|---------------------------------------------------------------|
                                                                  |
                                                                  |
   (Guitar 2)                                                     |
 E|---------------------------------------------------------------|
 B|---------------------------------------------------------------|
 G|---------------------------------------------------------------|
 D|---------------------------------------------------------------|
 A|---------------------------------------------------------------|
 E|--5-----------------------------------------------5------------|
                                                     Sl



 

    (Guitar 1)
 E|---------------------------------------------------------------|
 B|----------5-----------5-----------5-----------0-----------0----|
 G|------5-----------5-----------5-----------5-----------5--------|
 D|--5-----------5-----------5-----------5-----------5------------|
 A|---------------------------------------------------------------|
 E|---------------------------------------------------------------|
                                                                  |
                                                                  |
    (Guitar 2)                                                    |                                            
 E|---------------------------------------------------------------|
 B|---------------------------------------------------------------|
 G|---------------------------------------------------------------|
 D|---------------------------------------------------------------|
 A|---------------------------------------------------------------|
 E|--1------------------------------------------------------------|





    (Guitar 1)
 E|---------------------------------------------------------------|
 B|----------5-----------5-----------5-----------0-----------0----|
 G|------5-----------5-----------5-----------5-----------5--------|
 D|--5-----------5-----------5-----------5-----------5------------|
 A|---------------------------------------------------------------|
 E|---------------------------------------------------------------|

   
    (Guitar 2)
 E|---------------------------------------------------------------|
 B|---------------------------------------------------------------|
 G|---------------------------------------------------------------|
 D|---------------------------------------------------------------|
 A|--3------------------------------------------------------------|
 E|--1------------------------------------------------8-----------|         
                                                     Sl
 
Sound Sample


Verse
    (Guitar 1)
 E|---------------------------------------------------------------|
 B|----------12-----------12----------12----------12----------12--|
 G|------12-----------12----------12----------12----------12------|          
 D|--12-----------12----------12----------12----------12----------|
 A|---------------------------------------------------------------|
 E|---------------------------------------------------------------|
                                                                  |
                                                                  |
    (Guitar 2)                                                    |
 E|---------------------------------------------------------------|
 B|---------------------------------------------------------------|
 G|---------------------------------------------------------------|
 D|---------------------------------------------------------------|
 A|---------------------------------------------------------------|
 E|--3------------------------------------------------8-----------|
                                                      Sl




    (Guitar 1)
 E|---------------------------------------------------------------|
 B|----------5-----------5-----------6-----------5-----------5----|
 G|------5-----------5-----------5-----------5-----------5--------|
 D|--5-----------5-----------5-----------5-----------5------------|
 A|---------------------------------------------------------------|
 E|---------------------------------------------------------------|
                                                                  |                                                                                                              |         
    (Guitar 2)                                                    | 
 E|---------------------------------------------------------------|
 B|---------------------------------------------------------------|
 G|---------------------------------------------------------------|
 D|---------------------------------------------------------------|
 A|---------------------------------------------------------------|
 E|--3------------------------------------------------8-----------|
                                                      Sl   (Repeat)
 


Sound Sample

Chorus
   (Guitar 1)
 E|----------10--------------10--------------------------10-------|
 B|--------------10-----------------10----------------------------|
 G|----------------------11----------------------------------11---|
 D|-----------------------------------------12--------------------|
 A|---------------------------------------------------------------|
 E|---------------------------------------------------------------|
                                                                  |
    (Guitar 2)                                                    |
 E|---------------------------------------------------------------|
 B|---------------------------------------------------------------|
 G|---------------------------------------------------------------|
 D|---------------------------------------------------------------|
 A|---------------------------------------------------------------|
 E|--10--------------------------------------------10-------------|
                                                   Sl



   (Guitar 1)
 E|----------5--------------5----------------------------5--------|
 B|--------------5-----------------5------------------------------|
 G|----------------------6-----------------------------------6----|
 D|-----------------------------------------7---------------------|
 A|---------------------------------------------------------------|
 E|---------------------------------------------------------------|
                                                                  |
   (Guitar 2)                                                     |
 E|---------------------------------------------------------------|
 B|---------------------------------------------------------------|
 G|---------------------------------------------------------------|
 D|---------------------------------------------------------------|
 A|---------------------------------------------------------------|
 E|--5---------------------------------------------5--------------|
                                                   Sl


   (Guitar 1)
 E|----------1--------------1----------------------------1--------|
 B|--------------1-----------------1------------------------------|
 G|----------------------2-----------------------------------2----|
 D|-----------------------------------------3---------------------|
 A|---------------------------------------------------------------|
 E|---------------------------------------------------------------|
                                                                  |
   (Guitar 2)                                                     |
 E|---------------------------------------------------------------|
 B|---------------------------------------------------------------|
 G|---------------------------------------------------------------|
 D|---------------------------------------------------------------|
 A|---------------------------------------------------------------|
 E|--1------------------------------------------------------------|




   (Guitar 1)
 E|----------1--------------1----------------------------1--------|
 B|--------------1-----------------1------------------------------|
 G|----------------------2-----------------------------------2----|
 D|-----------------------------------------3---------------------|
 A|---------------------------------------------------------------|
 E|---------------------------------------------------------------|
                                                                  |
   (Guitar 2)                                                     |
 E|---------------------------------------------------------------|
 B|---------------------------------------------------------------|
 G|---------------------------------------------------------------|
 D|---------------------------------------------------------------|
 A|---------------------------------------------------------------|
 E|---1-----------------------------------------------------------|





   (Guitar 1)
 E|----------3--------------3----------------------------3--------|
 B|--------------3-----------------3------------------------------|
 G|----------------------4-----------------------------------4----|
 D|-----------------------------------------5---------------------|
 A|---------------------------------------------------------------|
 E|---------------------------------------------------------------|
                                                                  |
   (Guitar 2)                                                     |
 E|---------------------------------------------------------------|
 B|---------------------------------------------------------------|
 G|---------------------------------------------------------------|
 D|---------------------------------------------------------------|
 A|---------------------------------------------------------------|
 E|---3-----------------------------------------------------------|





   (Guitar 1)
 E|----------10--------------10--------------------------10-------|
 B|--------------10-----------------10----------------------------|
 G|----------------------11----------------------------------11---|
 D|-----------------------------------------12--------------------|
 A|---------------------------------------------------------------|
 E|---------------------------------------------------------------|
                                                                  |
    (Guitar 2)                                                    |
 E|---------------------------------------------------------------|
 B|---------------------------------------------------------------|
 G|---------------------------------------------------------------|
 D|---------------------------------------------------------------|
 A|---------------------------------------------------------------|
 E|--10--------------------------------------------10-------------|
                                                   Sl




   (Guitar 1)
 E|----------1--------------1----------------------------1--------|
 B|--------------1-----------------1------------------------------|
 G|----------------------2-----------------------------------2----|
 D|-----------------------------------------3---------------------|
 A|---------------------------------------------------------------|
 E|---------------------------------------------------------------|
                                                                  |
   (Guitar 2)                                                     |
 E|---------------------------------------------------------------|
 B|---------------------------------------------------------------|
 G|---------------------------------------------------------------|
 D|---------------------------------------------------------------|
 A|---------------------------------------------------------------|
 E|---1-----------------------------------------------------------|






   (Guitar 1)
 E|---------8---------------8----------------------------8--------|
 B|--------------8-----------------8------------------------------|
 G|----------------------9-----------------------------------9----|
 D|-----------------------------------------10--------------------|
 A|---------------------------------------------------------------|
 E|---------------------------------------------------------------|
                                                                  |
   (Guitar 2)                                                     |
 E|---------------------------------------------------------------|
 B|---------------------------------------------------------------|
 G|---------------------------------------------------------------|
 D|---------------------------------------------------------------|
 A|---------------------------------------------------------------|
 E|---8-----------------------------------------------------------|






   (Guitar 1)
 E|----------3--------------3----------------------------3--------|
 B|--------------3-----------------3------------------------------|
 G|----------------------4-----------------------------------4----|
 D|-----------------------------------------5---------------------|
 A|---------------------------------------------------------------|
 E|---------------------------------------------------------------|
                                                                  |
   (Guitar 2)                                                     |
 E|---------------------------------------------------------------|
 B|---------------------------------------------------------------|
 G|---------------------------------------------------------------|
 D|---------------------------------------------------------------|
 A|---------------------------------------------------------------|
 E|---3-----------------------------------------------------------|






   (Guitar 1)
 E|----------10--------------10--------------------------10-------|
 B|--------------10-----------------10----------------------------|
 G|----------------------11----------------------------------11---|
 D|-----------------------------------------12--------------------|
 A|---------------------------------------------------------------|
 E|---------------------------------------------------------------|
                                                                  |
    (Guitar 2)                                                    |
 E|---------------------------------------------------------------|
 B|---------------------------------------------------------------|
 G|---------------------------------------------------------------|
 D|---------------------------------------------------------------|
 A|---------------------------------------------------------------|
 E|--10--------------------------------------------10-------------|
                                                   Sl




   (Guitar 1)
 E|----------1--------------1----------------------------1--------|
 B|--------------1-----------------1------------------------------|
 G|----------------------2-----------------------------------2----|
 D|-----------------------------------------3---------------------|
 A|---------------------------------------------------------------|
 E|---------------------------------------------------------------|
                                                                  |
   (Guitar 2)                                                     |
 E|---------------------------------------------------------------|
 B|---------------------------------------------------------------|
 G|---------------------------------------------------------------|
 D|---------------------------------------------------------------|
 A|---------------------------------------------------------------|
 E|--1------------------------------------------------------------|




   (Guitar 1)
 E|----------1--------------1----------------------------1--------|
 B|--------------1-----------------1------------------------------|
 G|----------------------2-----------------------------------2----|
 D|-----------------------------------------3---------------------|
 A|---------------------------------------------------------------|
 E|---------------------------------------------------------------|
                                                                  |
   (Guitar 2)                                                     |
 E|---------------------------------------------------------------|
 B|---------------------------------------------------------------|
 G|---------------------------------------------------------------|
 D|---------------------------------------------------------------|
 A|---------------------------------------------------------------|
 E|---1-------------------------------------------8---------------|
                                                  Sl

Song Lyrics.


Return To Main Page