Sound Sample

      H       H        H      H     H     H     H
 E|--------------------------------------------------|
 B|--------------------------------------------------|
 G|--------------------------------7--9--------7--9--|
 D|--7--(9)--7--(9)--7--(9)--7--9--------7--9--------|
 A|--7-------7-------7-------------------------------|
 E|--------------------------------------------------|
                                              (Repeat)





Sound Sample
    BU  BD                      Sl    H     H
 E|--------------------------------------------------|
 B|--------------------------------------------------|
 G|--9--(9)--7--9--9--7--9--7------------------------|
 D|----------------------------9--7--5--7--5--7------|
 A|--------------------------------------------------|
 E|--------------------------------------------------|


      H              H     H     H         H
 E|--------------------------------------------------|
 B|--------------------------------------------------|
 G|-----------------------------7--9--9----------12--|
 D|--------5--------5--7--7--9-----------12--14------|
 A|--5--7-----7--7-----------------------------------|
 E|--------------------------------------------------|


     BU   BD       BU   BD Po  
 E|--------------------------------------------------|
 B|--------------------------------------------------|
 G|--14--(14)--12--14--(14)--12--14--12------12------|
 D|--------------------------------------14------14--|
 A|--------------------------------------------------|
 E|--------------------------------------------------|


         BU          BU  BU          BU  BU
 E|----------12----------------------15--15--15--12--|
 B|--------------15--15--15--15--12------------------|
 G|------14------------------------------------------|
 D|--14----------------------------------------------|
 A|--------------------------------------------------|
 E|--------------------------------------------------|


               Po                BU        Po
 E|--15--12--15--12------------------12--------------|
 B|------------------15--15--12----------15--12------|
 G|------------------------------14--------------12--|
 D|--------------------------------------------------|
 A|--------------------------------------------------|
 E|--------------------------------------------------|


             BU  BU    Po
 E|--------------------------------------------------|
 B|--------------------------------------------------|
 G|------12--12--14--14--12------12------------------|
 D|--14----------------------14------14------12------|
 A|--------------------------------------14------12--|
 E|--------------------------------------------------|


           Po          Sl          H           
 E|--------------------------------------------------|
 B|--------------------------------------------------|
 G|--------------------------------------12----------|
 D|--------------------------12--12--14------14--12--|
 A|--10--12--10------12--14--------------------------|
 E|--------------12----------------------------------|



 E|--------------|
 B|--------------|
 G|--------------|
 D|--14--12--14--|
 A|--------------|
 E|--------------|


Check Out Paranoid Solo As Played By Randy Rhoads.

Return To Main Page