Sound Sample

Section 1

           H   
  E|-----------10-----10------------------10-----10---------|
  B|--8--7--8------8------8--8--7--10--8------8------8------|
  G|--------------------------------------------------------|
  D|--9--7--9------9------9--9--7--10--9------9------9------|
  A|--------------------------------------------------------|
  E|--------------------------------------------------------|

       Po    Po    Po    Po    Po          H     
  E|--7--5--7--5--7--5--7--5--7--5--7-----5--7--5-----10----|
  B|-----------------------------------8-----------8--------|
  G|--7--5--7--5--7--5--7--5--7--5--7-----5--7--5-----------|
  D|-----------------------------------9-----------9--------|
  A|--------------------------------------------------------|
  E|--------------------------------------------------------|

                H  
  E|-----------------10----10------------------10-----10----|
  B|--8--8--8--7--8-----8------8--8--7--10--8------8--------|
  G|--------------------------------------------------------|
  D|--9--9--9--7--9-----9------9--9--7--10--9------9--------|
  A|--------------------------------------------------------|
  E|--------------------------------------------------------|

          Po    Po    Po    Po    Po          H
  E|-----7--5--7--5--7--5--7--5--7--5--7-----5--7--5----10--|
  B|--8-----------------------------------8-----------8-----|
  G|-----7--5--7--5--7--5--7--5--7--5--7-----5--7--5--------|
  D|--9-----------------------------------9-----------9-----|
  A|--------------------------------------------------------|
  E|--------------------------------------------------------|


Sound Sample

Section 2

  E|--15--14--15----------15----------15------15--14--14----|
  B|--15----------15----------15----------15----------------|
  G|------------------12----------12------------------------|
  D|--------------------------------------------------------|
  A|--------------------------------------------------------|
  E|--------------------------------------------------------|


  E|--15----------15----------15------15--14--15------------|
  B|------15----------15----------15--------------15--------|
  G|----------12----------12--------------------------12----|
  D|--------------------------------------------------------|
  A|--------------------------------------------------------|
  E|--------------------------------------------------------|

                              H
  E|--15----------15---------------10-----10----------------|
  B|------15----------15--8--7--8------8------8--8--7--10---|
  G|----------12--------------------------------------------|
  D|----------------------9--7--9------9------9--9--7--10---|
  A|--------------------------------------------------------|
  E|--------------------------------------------------------|


  E|-----10-----10-----|
  B|--8------8------8--|
  G|-------------------|
  D|--9------9------9--|
  A|-------------------|
  E|-------------------|


Sound Sample

Section 3

       Po    Po    Po    Po    Po          H  
  E|--7--5--7--5--7--5--7--5--7--5--7-----5--7--5-----10--|
  B|-----------------------------------8-----------8------|
  G|--7--5--7--5--7--5--7--5--7--5--7-----5--7--5---------|
  D|-----------------------------------9-----------9------|
  A|------------------------------------------------------|
  E|------------------------------------------------------|


Sound Sample

Section 4

       Po    Po    Po    Po    Po          H       (HOLD)
  E|--7--5--7--5--7--5--7--5--7--5--7-----5--7--5--3------|
  B|-----------------------------------8-----------3------|
  G|--7--5--7--5--7--5--7--5--7--5--7-----5--7--5--4------|
  D|-----------------------------------9-----------5------|
  A|-----------------------------------------------5------|
  E|-----------------------------------------------3------|


Song Structure


Section 1/ Section 2/ Section 3/ Section 1/ Section 2/ Section 4.


Chords/Lyrics and useful tips.


Return To Main Page