Sound Sample


 E|---------------------------------------------------|
 B|-----------------------8---------------------------|
 G|-------7---7---5---7-------7---5---5---3---3---0---|
 D|---5---5-------5---------------5---5---3---3---0---|
 A|---------------------------------------------------|
 E|---------------------------------------------------|
     Harm           H                  Sl

 
 E|---------------------------------------------------|
 B|---------------------------------------------------|
 G|---0---3---0---3---5---5---3---0-------7---7-------|
 D|---0-----------3---5---5---3---0---5---5-----------|
 A|---------------------------------------------------|
 E|---------------------------------------------------|
                                     Harm


 E|---------------------------------------------------|
 B|-----------8---------------------------------------|
 G|---5---7-------7---5---5---3---0---0---3---0-------|
 D|---5---------------5---5---3---0---0---3---0---0---|
 A|---------------------------------------------------|
 E|---------------------------------------------------|
        H                   Sl

 E|---------------|
 B|---------------|
 G|---------------|
 D|---3---5---5---|
 A|---3---5---5---|
 E|---------------|


Chords used in Verse

      (G5)    (Bb5)     (C5)    (F5)    (G5)
 E|---------------------------------------------------|
 B|---------------------------------------------------|
 G|----0--------3--------5----------------------------|
 D|----0--------3--------5-------3-------5------------|
 A|------------------------------3-------5------------|
 E|---------------------------------------------------|


Chord Progression for Verse

   G5        G5          G5         Bb5    C5    G5 
    /  /  /  /  /  /  /  /  /  /  /  /  /  /  /  /  /  /  /

   G5        G5          F5    G5
    /  /  /  /  /  /  /  /  /  /  /


Chords used in Chorus

      (Eb5)   (Bb5)   (F5)   (G5)   (C5)   (D5)   (E5)
 E|-----------------------------------------------------|
 B|-----------------------------------------------------|
 G|-----8-------3------10-----0-------5------7------9---|
 D|-----8-------3------10-----0-------5------7------9---|
 A|-----6-------1------8--------------3------5------7---|
 E|-----------------------------------------------------|


Chord Progression for Chorus

   Eb5    Bb5    Eb5    F5    G5    C5    D5    E5   


Song Structure


Main Riff Twice / Verse Once / Chorus Once / Main Riff Once /
Chorus Once / Verse Twice / Chorus Once / Main Riff Once / Verse Once /
Song Fade Out on Mixture of Verse Chords and Main Riff.


Useful Tips


In the Main Riff you need to play a Harmonic note. This has been marked with the symbol Harm. To achieve this effect, place your finger very lightly on the fourth string directly over the 5th fret with your left hand and strike the string with your right. This should give you a ringing effect.

I have given you the Chord Progressions for the Verse and Chorus but it is very difficult to show the proper strum patterns. Listen to the record and try to play along with it until you're happy with the feel. Don't overdo it when playing the Chords, use a good heavy distortion with lots of sustain to let those Chords ring out. Have Fun.


Return To Main Page