Sound Sample
Section 1
 E|------------------------------------------------------------------|
 B|------------------------------------------------------------------|
 G|------------------------------------------------------------------|
 D|---------0---3---0------0---7--------3----3-------5---5-------7---|
 A|---0---3------------3-------5---0----1----0-------3---0-------5---|
 E|----------------------------------------------3-----------3-------|
        H    H   Po  





Sound Sample

Section 2
 E|-----------10---13---10--------10---13---(15)---13---12-------10--|
 B|--10---13-----------------13------------------------------13------|
 G|------------------------------------------------------------------|
 D|------------------------------------------------------------------|
 A|------------------------------------------------------------------|
 E|------------------------------------------------------------------|
        H       H    Po                 BU





 E|-----------10---13---10--------10---15---(17)---15---12-------10--|
 B|--10---13-----------------13------------------------------13------|
 G|------------------------------------------------------------------|
 D|------------------------------------------------------------------|
 A|------------------------------------------------------------------|
 E|------------------------------------------------------------------|
        H       H    Po                 BU



Chord Progression for Verse:

C#m      G#m     C#m   C7 D7 E7      F#m   B    E    A   F#m   B5   E    A5
/ / / /  / / / /  / /  /  /  / / / /  / /  / /  / /  / /  / /  / /  / /  /


Chord Shapes To Use

      A   A5  B  B5  C7  C#m  D7  E   E7    Fm   G#m
 E|---0---------------3---4---5---0---7----2-----4----|
 B|---2-------4-------5---5---7---0---9----2-----4----|
 G|---2-------4---4---3---6---5---1---7----2-----4----|
 D|---2---2---4---4---5---6---7---2---9----4-----6----|
 A|---0---0---2---2---3---4---5---2---7----4-----6----|
 E|-------------------------------0--------2-----4----|

Return To Main Page