Sound Sample
I have recorded these Mp3 files with the guitar at normal tuning.
If you want to play along with the actual record you must tune your guitar DOWN A HALF STEP.

Main Riff

 E|----------------------------|
 B|----------------------------|
 G|-----7----7------10--10-----|
 D|-----7----7------10--10-----|
 A|----------------------------|
 E|----------------------------|
     Sl        Sl      (Repeat)


Sound Sample

Pre-Chorus

 E|----------------------------------------------------------------------|
 B|----------------------------------------------------------------------|
 G|-----------9------------12--------------6---6--------------5---5------|
 D|-----------9------------12--------------6---6--------------5---5------|
 A|-----------7------------10--------------4---4--------------3---3------|
 E|--0-0-0-0------0-0-0-0-------0-0-0-0-------------0-0-0-0--------------|
                                                          (Repeat 4 Times)
Sound Sample

Chorus

 E|----------------------------------------------------------------------|
 B|-----------------------------------5----------------------------------|
 G|---------------------------2---4--------4---(6)---4----2--------------|
 D|--4--4--4--4--4----2---4------------------------------------4---------|
 A|--4--4--4--4--4-------------------------------------------------------|
 E|--2--2--2--2--2-------------------------------------------------------|
                        H       H            BU   BD   Po      



 E|------------------------------------------12--------------------------|
 B|--------------------------------10---12--(14)--14--(12)--12---10------|
 G|-----------------------9---11-----------------------------------------|
 D|--4--4--4--4--4-------------------------------------------------------|
 A|--4--4--4--4--4-------------------------------------------------------|
 E|--2--2--2--2--2-------------------------------------------------------|
                       Sl   H           BU         BD             Vib



 E|------------------14---17--(19)--17--14--14--17--14-------------------|
 B|-----------------------------------------------------17--14--17--17---|
 G|----------------------------------------------------------------------|
 D|--4--4--4--4--4-------------------------------------------------------|
 A|--4--4--4--4--4-------------------------------------------------------|
 E|--2--2--2--2--2-------------------------------------------------------|
                          BU                   H  Po                BU




 E|----------------------------------------------------------------------|
 B|-----------------------------------5----------------------------------|
 G|---------------------------2---4--------4---(6)---4----2------7-------|
 D|--4--4--4--4--4----2---4----------------------------------------------|
 A|--4--4--4--4--4-------------------------------------------------------|
 E|--2--2--2--2--2-------------------------------------------------------|
                        H       H            BU   BD   Po          Sl
Sound Sample

Bridge

(Guitar 1 and 2 overdubbed for effect)

 E|--10-10-12--13-12---8--8--10-------10-10-12--13-12--8--8--10----------|Guitar 1
 B|--10-10-12--13-12---8--8--10-------10-10-12--13-12--8--8--10----------|Guitar 1
 G|---7--7--9--10--9---5--5---7--------7--7--9--10--9--5--5---7----------|Guitar 2
 D|---7--7--9--10--9---5--5---7--------7--7--9--10--9--5--5---7----------|Guitar 2
 A|----------------------------------------------------------------------|
 E|----------------------------------------------------------------------|
                           Sl                               Sl



 E|---15--15--17--18--17--13--13---15---10-10-12--13-12--8--8--10--------|Guitar 1
 B|---15--15--17--18--17--13--13---15---10-10-12--13-12--8--8--10--------|Guitar 1
 G|---12--12--14--15--14--10--10---12----7--7--9--10--9--5--5---7--------|Guitar 2
 D|---12--12--14--15--14--10--10---12----7--7--9--10--9--5--5---7--------|Guitar 2
 A|----------------------------------------------------------------------|
 E|----------------------------------------------------------------------|
                                 Sl                           Sl

Sound Sample

Solo (over Pre-Chorus)

 E|----------------------15--15---------------------------12--15--15-----|
 B|--15--15--12--15--12---------------15--15--12--15--12-----------------|
 G|------------------------------12-----------------------------------12-|
 D|----------------------------------------------------------------------|
 A|----------------------------------------------------------------------|
 E|----------------------------------------------------------------------|
     BU                  BU      Vib  BU                      BU      Vib

Sound Sample

Outro

(Guitar 1 and 2 overdubbed for effect)
 E|--12-12--14--15--14-10-10--12-------12-12--14--15--14-10-10--12-------|Guitar 1
 B|--12-12--14--15--14-10-10--12-------12-12--14--15--14-10-10--12-------|Guitar 1
 G|---9--9--11--12--11--7--7---9--------9--9--11--12--11--7--7---9-------|Guitar 2
 D|---9--9--11--12--11--7--7---9--------9--9--11--12--11--7--7---9-------|Guitar 2
 A|----------------------------------------------------------------------|
 E|----------------------------------------------------------------------|
                             Sl                                Sl



 E|----------------------------------------------------------------------|
 B|----------------------------------------------------------------------|
 G|--7--7--7--7--7----7--7--7--7-------7--7--7--7--7----7--7--7--7-------|
 D|--7--7--7--7--7----7--7--7--7-------7--7--7--7--7----7--7--7--7-------|
 A|--5--5--5--5--5----5--5--5--5-------5--5--5--5--5----5--5--5--5-------|
 E|----------------------------------------------------------------------|
                            

 E|--------------------------------|
 B|--------------------------------|
 G|--7--7--7--7--7-------------7---|
 D|--7--7--7--7--7----7--7--7------|
 A|--5--5--5--5--5----5--5--5------|
 E|--------------------------------|
              (Repeat till Fade Out)

Song Structure & Lyrics

Return To Main Page