Sound Sample
  (Intro Riff)
 E|---------------------------------|
 B|---------------------------------|
 G|---------------------------------|
 D|---3---2---1--------8----6-------|
 A|---------------------------------|
 E|---------------------------------|
                   Sl       (Repeat)


Sound Sample

  (Fill In Intro) 
 E|---14--(16)--14------------------|
 B|------------------11--(13)--11---|
 G|---------------------------------|
 D|---------------------------------|
 A|---------------------------------|
 E|---------------------------------|
        BU   BD      BU    BD 


Sound Sample

Solo Guitar One


 E|-----------------------------------------------------------------------------|
 B|--11--13--14--16-(17)-16---13--11--13--14--13--14--13--14--16-(17)-16---13---|
 G|-----------------------------------------------------------------------------|
 D|-----------------------------------------------------------------------------|
 A|-----------------------------------------------------------------------------|
 E|-----------------------------------------------------------------------------|
             Vib   BU  BD                                       BU   BD



 E|---20---19---18---16---14---13---11---13---11-------11-------16---15---14----|
 B|-----------------------------------------------14-------13-------------------|
 G|-----------------------------------------------------------------------------|
 D|-----------------------------------------------------------------------------|
 A|-----------------------------------------------------------------------------|
 E|-----------------------------------------------------------------------------|
                                      H    Po



 E|-------------13--------13---16--------16---21--------21---23-----------------|
 B|---14---16--------14-------------18-------------21---------------------------|
 G|-----------------------------------------------------------------------------|
 D|-----------------------------------------------------------------------------|
 A|-----------------------------------------------------------------------------|
 E|-----------------------------------------------------------------------------|
                                                             BU
Sound Sample

Solo Guitar 2

 E|-----------------------------------------------------------------------------|
 B|--11--13--14--16-(17)-16---13--11--13--14--13--14--13--14--16-(17)-16---13---|
 G|-----------------------------------------------------------------------------|
 D|-----------------------------------------------------------------------------|
 A|-----------------------------------------------------------------------------|
 E|-----------------------------------------------------------------------------|
            Vib   BU  BD                                       BU   BD



 E|---16---15---14---13-------------------------------------------13---12---11--|
 B|-----------------------16---14---13---14---13--------13----------------------|
 G|------------------------------------------------15--------13-----------------|
 D|-----------------------------------------------------------------------------|
 A|-----------------------------------------------------------------------------|
 E|-----------------------------------------------------------------------------|
                                      H    Po  



 E|-----------------------------13--------13---16--------16---19----------------|
 B|---------13---14--------14--------14-------------18--------------------------|
 G|----15-------------15--------------------------------------------------------|
 D|-----------------------------------------------------------------------------|
 A|-----------------------------------------------------------------------------|
 E|-----------------------------------------------------------------------------|
                                                              BU  



Sound Sample

Listen To Solo With Both Guitars Played in Unison



Chords and Lyrics.

Return To Main Page