Sound Sample

 E|-----------------------------------------------|
 B|-----------------------------------------------|
 G|-----------------------------------------------|
 D|-----------------------------------------------|
 A|-----------------------------------------------|
 E|--0-------------------------0------------------|
     Bend Behind Nut           Bend Behind Nut



 E|-----------------------------------------------|
 B|-----------------------------------------------|
 G|-----------------------------------------------|
 D|--4--7--7--9--9--12-11--12-11--12--7--7--9--9--|
 A|--2--5--5--7--7--10--9--10--9--10--5--5--7--7--|
 E|-----------------------------------------------|
            Sl        Sl Sl  Sl Sl         (Repeat)




 E|----------------------------------------------|
 B|----------------------------------------------|
 G|----------------------------------------------|
 D|----------------------------------------------|
 A|--9--9---5------------------------------------|
 E|--7--7------7--6--5--5--5---0--4--5--5--6-----|
                          Sl              (Repeat)



 E|--------------------------------|
 B|--------------------------------|
 G|--------------------------------|
 D|--------------------------------|
 A|--9--9---5----------------------|
 E|--7--7------7--6--5--5--5--5----|
                              Sl





Check Out The Full Solo Transcription.

Useful Tip

Bend Behind Nut - To achieve this effect strike the open E string then press down on the E string behind the nut of the guitar. .

Return To Main Page