Sound Sample

Guitar Intro and Chorus
     E                 A      B
 E|----------------------------------------|
 B|----------------------------------------|
 G|---------------------------4--4---------|
 D|--------------------2--2---4--4---------|
 A|--2--2---2--2-------0--0---2--2---------|
 E|--0--0---0--0---3-----------------3-----| 
                  BU                BU

     E                 A      B   A
 E|----------------------------------------|
 B|----------------------------------------|
 G|---------------------------4------------|
 D|--------------------2--2---4---2--------|
 A|--2--2---2--2-------0--0---2---0--2--2--|
 E|--0--0---0--0---3-----------------0--0--|
                  BU

Sound Sample


Guitar Backing for Verse
     E
 E|--------------------------------------|
 B|--------------------------------------|
 G|--------------9--9--------------------|
 D|--------------9--9--------------------|
 A|--2--2--------7--7----7--5------------|
 E|--0--0----------------------7--5--3---|
                         (With Fill-In)

    E            B
 E|--------------------------------------|
 B|--------------------------------------|
 G|--------------4--4--------------------|
 D|--------------4--4--------------------|
 A|--2--2--------2--2----7--5------------|
 E|--0--0----------------------7--5--3---|
                         (With Fill-In)

     A      B      E    A5    B
 E|--------------------------------------|
 B|----------------------2---------------|
 G|---------4--4---------2-----4-4-4-4---|
 D|--2--2---4--4---------2-----4-4-4-4---|
 A|--0--0---2--2---2--2--0-----2-2-2-2---|
 E|----------------0--0------------------|
                        (Hold)


Sound Sample

Guitar Fill-In
 E|--------------------------------------|
 B|---15--(17)--15---12------------------|
 G|-----------------------14---12--------|
 D|--------------------------------------|
 A|--------------------------------------|
 E|--------------------------------------|
        BU    BD                Vibrato

Return To Main Page