Sound Sample

(Guitar Solo)

 E|----------------------------------------------------------------------|
 B|---------10--12--12--(14)--(12)--12--14-----------7-------------------|
 G|--9--11----------------------------------9--7--9-----7-----4--7--4----|
 D|--------------------------------------------------------8-------------|
 A|----------------------------------------------------------------------|
 E|----------------------------------------------------------------------|
      Sl      H       BU    BD        H         H               H  Po




 E|----------------------------------------------------10----------------|
 B|-----------7--------------------7--------------10--(12)--12--(10)--7--|
 G|-----7--9-----7-----------7--9--------------7-------------------------|
 D|--7--------------9--8--9-----------9--7--9----------------------------|
 A|----------------------------------------------------------------------|
 E|----------------------------------------------------------------------|
     Ch  H           Sl Sl    H        Po         BU        BD




 E|--------------7-----10--(12)--10--10--(12)--10--7-----------10--------|
 B|--10--8--(9)-----7---------------------------------10--10--(12)--12---|
 G|----------------------------------------------------------------------|
 D|----------------------------------------------------------------------|
 A|----------------------------------------------------------------------|
 E|----------------------------------------------------------------------|
          BU              BU           BU    BD              BU        BD




 E|---------------------10-----------------------------------------------|
 B|--(10)--8--------------------------------------------7--7-------------|
 G|-----------0--0--9--(11)--11--(9)--7--7--6--7--7--9-----------9--7----|
 D|----------------------------------------------------------------------|
 A|----------------------------------------------------------------------|
 E|----------------------------------------------------------------------|
              M  M    BU        BD        Sl Sl    H    Ch Ch     Po



 E|------------------------------------7---------------------------------|
 B|-----7--7--7-----------7--10-----7------------------------------------|
 G|--9-----------9--7--9---------9--------9--(11)--9--7----9-------------|
 D|----------------------------------------------------------------------|
 A|----------------------------------------------------------------------|
 E|----------------------------------------------------------------------|
       Ch  Ch Ch  Po   BU       BU         BU   BD   Po    BUVib~~~




 E|-----------------7--------7--------7----------------------------------|
 B|-----7--10----7--------7--------7-------------------------------------|
 G|--9--------9--------9--------9--------9--(11)--9--7---9----9----------|
 D|----------------------------------------------------------------------|
 A|----------------------------------------------------------------------|
 E|----------------------------------------------------------------------|
     BU       BU       BU       BU        BU   BD  Po        BUVib~~~




 E|--------------------------7--------------10---------------------------|
 B|----------------------10-----10--7--10--(12)--12--11--10--9-------12--|
 G|--12--9--11--7-----7-----------------------------------------14--(16)-|
 D|----------------9-----------------------------------------------------|
 A|----------------------------------------------------------------------|
 E|----------------------------------------------------------------------|
     BU                  BU               BU                      BU



 E|---------------------17-----------------------------15-16-17--17-(19)-|
 B|-------17---15--17--(19)--19--(17)--15--17--15--17--------------------|
 G|--17--(19)------------------------------------------------------------|
 D|----------------------------------------------------------------------|
 A|----------------------------------------------------------------------|
 E|----------------------------------------------------------------------|
       BU            BU        BD                                  BU




 E|-----------------------------17----17---------------------------------|
 B|--18--(17)--15--17--15--17--(19)-------(19)--17--17--(19)--17--15-----|
 G|----------------------------------------------------------------------|
 D|----------------------------------------------------------------------|
 A|----------------------------------------------------------------------|
 E|----------------------------------------------------------------------|
       BD            Po      BU               BD       BU   BD 



 E|------------17--17-------------------------------------------17-------|
 B|--17--(19)----------19--(17)--17---------17--(19)--17---15------------|
 G|----------------------------------------------------------------------|
 D|----------------------------------------------------------------------|
 A|----------------------------------------------------------------------|
 E|----------------------------------------------------------------------|
       BU                BD      BUVib~~~     BU    BD          BUVib~~






 E|------10------10------------12--(13)-13-13-13-13-13--13-12---12---10--|
 B|--13------13------------11--------------------------------------------|
 G|------------------9--8------------------------------------------------|
 D|----------------------------------------------------------------------|
 A|----------------------------------------------------------------------|
 E|----------------------------------------------------------------------|
     BU      BU       Po   Vib   BU    |Bend down gradually|       Po




 E|------12--10-----------------------------------10------9----7---------|
 B|--12----------12--10-------------------10--10------10-----8---7--10---|
 G|----------------------11--9--7--9--11-------------------------------9-|
 D|----------------------------------------------------------------------|
 A|----------------------------------------------------------------------|
 E|----------------------------------------------------------------------|
                           Sl        Sl       BU           



 E|------------------------------------------------------------9-10--12--|
 B|--8---------------------------------------------10--12--11------------|
 G|-------7---------------7--12-(14)-12-11--11--12-----------------------|
 D|----9---------------7-------------------------------------------------|
 A|----------10--9--10---------------------------------------------------|
 E|----------------------------------------------------------------------|
                  Sl          BU   BD)



Sound Sample

(Outro Solo)


 E|--14--10------14--10------14--10------14--10------14--10--------------|
 B|----------12----------12----------12----------12----------12----------|
 G|----------------------------------------------------------------------|
 D|----------------------------------------------------------------------|
 A|----------------------------------------------------------------------|
 E|----------------------------------------------------------------------|




 E|--12--9------12--9------9--12----18---12--9------12--9------12--9-----|
 B|---------11---------11-----------------------10---------10---------10-|
 G|----------------------------------------------------------------------|
 D|----------------------------------------------------------------------|
 A|----------------------------------------------------------------------|
 E|----------------------------------------------------------------------|
                                 Sl



 E|--12--9------12--9------10--7-----10--7-----7--10----16---------------|
 B|---------10---------10---------9---------9----------------------------|
 G|----------------------------------------------------------------------|
 D|----------------------------------------------------------------------|
 A|----------------------------------------------------------------------|
 E|----------------------------------------------------------------------|
                                                      Sl




 E|--10--7-----10--7-----10--7-----10--7-----10--7-----10----------------|
 B|---------8---------8---------8---------8---------8------10------------|
 G|------------------------------------------------------------11--------|
 D|----------------------------------------------------------------------|
 A|----------------------------------------------------------------------|
 E|----------------------------------------------------------------------|




 E|--10--------------10----14------7--3-----7--3-----7--3-----7--3-------|
 B|------10------10----------------------5--------5--------5--------5----|
 G|----------11----------------------------------------------------------|
 D|----------------------------------------------------------------------|
 A|----------------------------------------------------------------------|
 E|----------------------------------------------------------------------|
                        Sl



 E|--7--3------9--6------9--9-----6---9------14-------|
 B|--------5---------7---------7----------------------|
 G|---------------------------------------------------|
 D|---------------------------------------------------|
 A|---------------------------------------------------|
 E|---------------------------------------------------|
                                        Sl     (Repeat)

Return To Main Page