Sound Sample

 E|------------------------------------------------------------|
 B|------------------------------------------------------------|
 G|------------------------------------------------------------|
 D|-----------1--3--1--------------------------1--3--1---------|
 A|-----1--3-----------3--1-----1--3-----1--3-----------3--1---|
 E|--3-----------------------3--------3------------------------|




 E|------------------------------------------8--10--8----------|
 B|-----------------------------------8--10------------11--10--|
 G|--------------------------5--7--9---------------------------|
 D|--------------------5--7------------------------------------|
 A|-----1--3-----5--7------------------------------------------|
 E|--3--------8------------------------------------------------|
            Sl                   Sl             BU



 E|---------------------------------------------------11--8----|
 B|--8------8--------------------------------------8--10--8----|
 G|-----11-----11--10--8------8------8------8--10--------------|
 D|-----------------------10-----10-----10---------------------|
 A|------------------------------------------------------------|
 E|------------------------------------------------------------|
                                                      Ch   Sl



 E|--8--8--11--8----------------11--8--------------------------|
 B|--8--8--10--8----------------10--8--8--8--------------------|
 G|---------------10--8--10--8---------8--8--------------------|
 D|----------------------------------------------------10--7---|
 A|-------------------------------------------------7----------|
 E|------------------------------------------8--10-------------|
     Sl    Ch



 E|---------------------------|
 B|---------------------------|
 G|---------------------------|
 D|------10--7------10--7-----|
 A|--10---------10------------|
 E|---------------------------|
                        Sl

Transcription for 2nd Solo and Guitar Backing.


Ch - Choke The String. To achieve this effect bend the string up slightly.

Return To Main Page