Sound Sample

(Intro & Main Backing)
 E|------------------------------------------------------------------------|
 B|---------------3---3---3-----3---3---3-----3---3---3-----3--------------|
 G|--2--2--2------2---2---0-----2---2---0-----2---2---0-----2-----2---2----|
 D|--2--2--2------0---0---0-----0---0---0-----0---0---0-----0-----2---2----|
 A|--0--0--0------X---X---X-----X---X---X-----X---X---X-----X-----0---0----|
 E|---------------2---2---3-----2---2---3-----2---2---3-----2--------------|
                                                                 (Repeat))





Sound Sample

Chorus
  E|--------------------------------------------------2---2--2--2--3---2--|
  B|--------------------------------------------------3---3--3--3--3---3--|
  G|-----------------------------------------2--2--2--2---2--2--2--0---2--|
  D|--2---2--2---2-2-2-2--2-2-2-2--2-2-2-2---2--2--2--0---0--0--0--0---0--|
  A|--2---2--2---2-2-2-2--2-2-2-2--2-2-2-2---0--0--0----------------------|
  E|--0---0--0---0-0-0-0--0-0-0-0--0-0-0-0-------------------------3------|




 E|------------2----2--2--2--3--2-----------------2----2--2--2--3--2------|
 B|------------3----3--3--3--3--3-----------------3----3--3--3--3--3------|
 G|--2--2--2---2----2--2--2--0--2-------2--2--2---2----2--2--2--0--2------|
 D|--2--2--2---0----0--0--0--0--0-------2--2--2---0----0--0--0--0--0------|
 A|--0--0--0----------------------------0--0--0---------------------------|
 E|--------------------------3----------------------------------3---------|




 E|-----------------------------------|
 B|---------------3-------------------|
 G|---2---2---2---2-----------2-2-2---|
 D|---2---2---2---0-----------2-2-2---|
 A|---0---0---0---------------0-0-0---|
 E|-----------------------------------|
                  (Hold)      

Return To Main Page