Sound Sample

 E|--------------0-----------------------0---0------------|
 B|-----------5-----5-----------------0------0------------|
 G|--------4-----------4-----------5---------5------------|
 D|-----2-----------------2-----5------------5------------|
 A|--------------------------3----------------------------|
 E|--0----------------------------------------------------|




 E|--------------0-----------------------0---0------------|
 B|-----------5-----5-----------------0------0------------|
 G|--------4-----------4-----------5---------5------------|
 D|-----2-----------------2-----5------------5------------|
 A|--------------------------3----------------------------|
 E|--0----------------------------------------------------|





 E|--------------0-------------------------0--------------|
 B|-----------5-----5-------------------0-----0-----------|
 G|--------4-----------4-------------5-----------5--------|
 D|-----2-----------------2-------5-----------------5-----|
 A|----------------------------3--------------------------|
 E|--0----------------------------------------------------|





 E|--------------0-------------------------0--------------|
 B|-----------5-----5-------------------------0-----------|
 G|--------4-----------4----------------7--------7--------|
 D|-----2-----------------2----------8--------------8-----|
 A|-------------------------------8-----------------------|
 E|--0-------------------------6--------------------------|





 E|--------------0-------------------------0--------------|
 B|-----------5-----5-------------------0-----0-----------|
 G|--------4-----------4-------------5-----------5--------|
 D|-----2-----------------2-------5-----------------5-----|
 A|----------------------------3--------------------------|
 E|--0----------------------------------------------------|





 E|--------------0-------------------------0--------------|
 B|-----------------0-------------------------0-----------|
 G|-----------4--------4----------------2--------2--------|
 D|--------5--------------5----------3--------------3-----|
 A|-----5-------------------------3-----------------------|
 E|--3-------------------------1--------------------------|





 E|--------------3-------------------------3--------------|
 B|-----------3-----3-------------------3-----3-----------|
 G|--------5-----------5-------------5-----------5--------|
 D|-----5-----------------5-------5-----------------5-----|
 A|--3-------------------------3--------------------------|
 E|-------------------------------------------------------|





 E|--------------3-------------6--------5--------3--------|
 B|-----------3-----3-------------3--------3--------3-----|
 G|--------3-----------3-------------3--------3-----------|
 D|-----3-----------------3-------------------------------|
 A|--3----------------------------------------------------|
 E|-------------------------------------------------------|





 E|--------------3-------------------------3--------------|
 B|-----------3-----3-------------------3-----3-----------|
 G|--------5-----------5-------------5-----------5--------|
 D|-----5-----------------5-------5-----------------5-----|
 A|--3-------------------------3--------------------------|
 E|-------------------------------------------------------|





 E|--------------3-------------6--------5--------3--------|
 B|-----------3-----3-------------3--------3--------3-----|
 G|--------3-----------3-------------3--------3-----------|
 D|-----3-----------------3-------------------------------|
 A|--3----------------------------------------------------|
 E|-------------------------------------------------------|





 E|-----------------5-----------------------5-------------|
 B|--------------5-----5-----------------5-----5----------|
 G|-----------7-----------7-----------7-----------7-------|
 D|-----5--7-----------------7-----7-----------------7----|
 A|--5--------------------------5-------------------------|
 E|-------------------------------------------------------|
         H




 E|--------------5-------------8--------7--------5--------|
 B|-----------5-----5-------------5--------5--------5-----|
 G|--------5-----------5-------------5--------5-----------|
 D|-----5-----------------5-------------------------------|
 A|--5----------------------------------------------------|
 E|-------------------------------------------------------|





 E|-----------------5-----------------------5-------------|
 B|--------------5-----5-----------------5-----5----------|
 G|-----------7-----------7-----------7-----------7-------|
 D|-----5--7-----------------7-----7-----------------7----|
 A|--5--------------------------5-------------------------|
 E|-------------------------------------------------------|
         H





 E|--------------5--------------8-------------------------|
 B|-----------5-----5-----------5-------------------------|
 G|--------5-----------5--------5-------------------------|
 D|-----5-----------------5-----5-------------------------|
 A|--5----------------------------------------------------|
 E|-------------------------------------------------------|


Check Out The Full Solo Transcription.

Return To Main Page