Sound Sample

Guitar Backing 1
 E|--------------------------------|
 B|--------------------------------|
 G|--------------------------------|
 D|--------------------------------|
 A|---2-------2---4-------2---4----|
 E|---0---0---0---0---0---0---0----|
                            (Repeat)

Sound Sample


Guitar Backing 2
 E|----------------------------------|
 B|--5---5---5--5--5-----------------|
 G|--4---4---4--4--4-----------------|
 D|--2---2---2--2--2-----------------|
 A|----------------------------------|
 E|-------------------2--(3)--2--0---|
                       BU   BD


Sound Sample

Guitar Fill-In
 E|----------------------------------------------------------------------|
 B|-----------------------------12---------------------------------------|
 G|----------12--14-----12--14------14--12------14--(16)--14---12--------|
 D|--12--14---------------------------------14---------------------14----|
 A|----------------------------------------------------------------------|
 E|----------------------------------------------------------------------|
       H         BUVib                Po         BU       BD Po     Vib


Return To Main Page