Sound Sample

 E|-------------------------------------------------------------|
 B|-------------------------------------------------5--3--------|
 G|--12--11--12--11--12--12--11--9--7--9--11--7--9--------4--5--|
 D|-------------------------------------------------------------|
 A|-------------------------------------------------------------|
 E|-------------------------------------------------------------|
           Sl  Sl          Sl     Sl    Sl     Sl    Sl    Sl


 E|-------------------------------------------------------------|
 B|--6--6--6--5-------------------------------------------------|
 G|--------------5-----0--4--5--7--6--7-------19--17------19----|
 D|-----------------5---------------------------------19--------|
 A|-------------------------------------------------------------|
 E|-------------------------------------------------------------|
            Sl      Sl           Sl Sl  Sl      Sl         Sl

Main Guitar Parts Plus Full Solo Transcription

Return To Main Page