Sound Sample

 E|-------------------------------------------|
 B|------4---6----8----------------------8----|
 G|--7---5---7-------10--8--7-----------------|
 D|--8------------------------10--8--7--------|
 A|-------------------------------------------|
 E|-------------------------------------------|




 E|-------------------------------------------|
 B|-------------------------------------------|
 G|--10--7--8---------7-----------7-----7-----|
 D|------------10--7-----8--7--8-----8-----8--|
 A|-------------------------------------------|
 E|-------------------------------------------|
                                       (Repeat)

Chords and Lyrics.


Return To Main Page