Sound Sample

Dropped D Tuning (DADGBE)


E|----------------------------------------|----------------------------------------|
B|----------------------------------------|----------------------------------------|
G|----------------------------------------|----------------------------------------|
D|----------------------------------------|----------------------------------------|
A|--3--5-----6--5-----3--5---3--5---6--5--|--3--5-----6--5-----3--5---3--5---6--5--|
D|-------0-0------0-0------0------0-------|-------0-0------0-0------0------0-------|
     H   M M  Po  M M   H  M  H   M  Po       H   M M  Po  M M   H  M  H   M  Po


E|----------------------------------------|----------------------------------------|
B|----------------------------------------|----------------------------------------|
G|----------------------------------------|----------------------------------------|
D|----------------------------------------|---------------------------------3-3-3--|
A|--3--5-----6--5-----3--5---3--5---6--5--|--3--5-----6--5-----3--5---3--5--3-3-3--|
D|-------0-0------0-0------0------0-------|-------0-0------0-0------0--------------|
     H   M M  Po  M M   H  M  H   M  Po       H   M M  Po  M M   H  M  H    M M M 

Return To Main Page