Sound Sample

Intro Riff
 E|--------------------------------------------|
 B|--------------------------------------------|
 G|--------------------------------------------|
 D|-----------2---3---2------------------------|
 A|---0---0---------------0---2---3---2--------|
 E|--------------------------------------------|
                H               H       (Repeat)


Sound Sample

Main Riff

 E|--------------------------------------------|
 B|--------------------------------------------|
 G|--------------------------------------------|
 D|-----2--1--0-----2--2--2--2---2--1--0-------|
 A|--0-----------3--0--0--0--0------------3----|
 E|--------------------------------------------|
                    M  M  M  M            Vib
Return To Main Page