Sound Sample
Classic Riff
 E|---------------------------------------------------|
 B|---------------------------------------------------|
 G|---------------------------------------------------|
 D|---------------------------------------------------|
 A|---3---5---3---------------------------------------|
 E|---------------2---2---2---3---2---0---0---0-------|
        H  Po               H  Po


 E|------------------------------------------------5--|
 B|---9---7---9--------5---4---5-------------------5--|
 G|---9---7---9--------5---4---5----------------------|
 D|---9---7---9--------5---4---5----------------------|
 A|---7---5---7--------3---2---3----------------------|
 E|--------------0--0--------------0---2---2---2------|
       Sl  Sl           Sl  Sl       H


 E|---------------------------------------------------|
 B|---------------------------------------------------|
 G|---------------------------------------------------|
 D|-------------------0---5---4---2---0---------------|
 A|-------3---2---3-----------------------------------|
 E|---2-----------------------------------------------|
           Po              Po

This Classic Riff is only a very small part of the song, but once you start playing it you won't want to stop.
Return To Main Page