Sound Sample


     (G)HOLD   (C)           (Am)          (F)       (G)  
  E|--3--------12-12-15-12----8--8-10--8----5-5-8-5---7-7--10-7---|
  B|--3--------13-13-13-13---10-10-10-10----6-6-6-6---8-8--8--8---|
  G|--4--------12-12-12-12----9--9--9--9----5-5-5-5---7-7--7--7---|
  D|--5--------14-14-14-14------------------7-7-7-7---9-9--9--9---|
  A|--5-----------------------------------------------------------|
  E|--3-----------------------------------------------------------|


   

CHORD PROGRESSION (Use Chord Shapes as above)


    (G)HOLD     C    Am    F    G    C    Am    F    G    C    Am

                C    Am    F    G     F    G    C    Am    F    G                                                                   

                C    Am    F    G  




Sound Sample

(Guitar Fill)

               Sl      Sl
  E|---------------------------------|
  B|---------------------8-----------|
  G|--------4----7--5-------9--7-----|
  D|--5--7---------------------------|
  A|---------------------------------|
  E|---------------------------------|



Sound Sample


(Guitar Solo)

       (G) (Am)              Sl       Sl          Sl
  E|------------------------------------------------------------|
  B|--------------------------------13--15--17--15--13----------|
  G|----------------------------14----------------------14------|
  D|------------------------------------------------------------|
  A|---5----7--7--7--7------------------------------------------|
  E|---3----5--5--5--5------------------------------------------|
         Sl          (HOLD) 

     (G)                                         BU
  E|------------------------------------------------------------|
  B|-------------------------------------13--15--15--13---------|
  G|-----------------------------14--14------------------14-----|
  D|------------------------------------------------------------|
  A|---5----7--7--7--7------------------------------------------|
  E|---3----5--5--5--5------------------------------------------|
         Sl          (HOLD)      


     (G)                     BU  BU  
  E|------------------------------------------------------------|
  B|-------------------------15--15--13--15---------------------|
  G|-----------------------------------------14--14-------------|
  D|------------------------------------------------------------|
  A|---5----7--7--7--7-------------------------------5-5-5-5----|
  E|---3----5--5--5--5-------------------------------3-3-3-3----|
         Sl          (HOLD)                                (HOLD)



Return to Main Chord Progression and Fade Out




Sound Sample

(Outro Solo)


     Sl                                H              Sl    
  E|-----------------------------------------------------------|
  B|------8-----8--10--8-----------5--5--6--5------------------|
  G|---9-----9------------7--5--7--------------7--5-----7------|
  D|-------------------------------------------------7-----7---|
  A|-----------------------------------------------------------|
  E|-----------------------------------------------------------|


       H                 H      BU  BU BU BD Po  
  E|-----------5-----------------------------------------------|
  B|--------5-----8--5-----------------------------------------|
  G|--5--7--------------5--7--------7--7--(7)--5-----5---------|
  D|--------------------------7--7----------------7------------|
  A|-----------------------------------------------------------|
  E|-----------------------------------------------------------|
Return To Main Page