Sound Sample
 E|--------------------------------------------------|
 B|--------------------------------------------------|
 G|--------------------------------------------------|
 D|--------------------------------------------------|
 A|--------4-----5-----4-----2-----------2-----------|
 E|--2--2-----2-----2-----2-----5--4--5-----5--4--0--|
   (Mute)                                     (Repeat)



 E|--------------------------2--0--------------------|
 B|--------------------------3--0----------2---------|
 G|--------------------------2--1----------2---------|
 D|--------------------------0--2----------2---------|
 A|--------4-----5-----4--------2---0-0-0--0--0-0-0--|
 E|--2--2-----2-----2-----2-----0--------------------|



 E|--------------------------------------------------|
 B|--5---------3---------2-----------------2---------|
 G|--4---------2---------2-----------------2---------|
 D|--6---------4---------2-----------------2---------|
 A|--0--0-0-0--0--0-0-0--0--0-------0-0-0--0--0-0-0--|
 E|----------------------------3-4-------------------|
                                H


 E|--------------------------------------------------|
 B|--5---------3---------2---------------------------|
 G|--4---------2---------2--4--2--0------------------|
 D|--6---------4---------2----------4--2--0----------|
 A|--0--0-0-0--0--0-0-0--0------------------4--2--0--|
 E|--------------------------------------------------|
                             Po Po   Po Po   Po Po


Chords and Lyrics

Return To Main Page