Sound Sample

  (Intro/Main Riff)

 E|----------------------------------------------------------------------|
 B|----------------------------------------------------------------------|
 G|--0-----------0-----------0-------------------------------------------|
 D|--5-----------5-----------5-------4-----------4-----------0---4---2---|
 A|--0---0---0---0---0---0---0---0---0---0---0---0---0---0---0---0---0---|
 E|----------------------------------------------------------------------|
         M   M       M   M       M       M   M       M   M    



 E|----------------------------------------------------------------------|
 B|----------------------------------------------------------------------|
 G|----------------------------------------------------------------------|
 D|-----------2-----------0---4---2-----------2-----------2--------------|
 A|---0---0---0---0---0---0---0---0---0---0---0---0---0---0---0----------|
 E|----------------------------------------------------------------------|
      M   M       M   M               M   M       M   M       M   (Repeat) 


Sound Sample
   (Chorus)

 E|----------------------------------------------------------------------|
 B|-------------------------------------7---7----5----------------5------|
 G|---4-----7---------------4-----7-----7---7----5-------7---7----5------|
 D|---5-----7-----7---5-----5-----7-----7---7----5---7---7---7----5------|
 A|---5-----5---------------5-----5------------------7-------------------|
 E|---3---------------------3--------------------------------------------|
                Sl    Vib                     Po                  Ch



 E|--------------------------3-------------------------------------------|
 B|--------------------------3-----------------7---7----7----------------|
 G|---4-----7----------------4-----------------7---7----7----------------|
 D|---5-----7-----7---5------5-----------------7---7----7----------------|
 A|---5-----5----------------5--------------------------5----------------|
 E|---3----------------------3-------------------------------------------|
               Sl     Vib     Hold                         Sl     




Sound Sample

   Bridge

 E|----------------------------------------------------------------------|
 B|----------------------------------------------------------------------|
 G|----------------------------------------------------------------------|
 D|-------------------------------------5------4-----2---------2---------|
 A|--------5----4----2--------2----0----------------------3--------------|
 E|---0------------------3-----------------------------------------------|
                                                          Ch      (Repeat)




Sound Sample



  Fill In from Bridge to Main Riff

 E|-----------------------------------------------|
 B|-----------------------------------------------|
 G|-----------------------------------------------|
 D|-----------------------------------------------|
 A|-----5-----------------------------------------|
 E|-----------3-----------3---(2)---(3)---(4)-----|

              Vib           Sl   Sl    Sl         (Back to Main Riff)  


Return To Main Page