Sound Sample
One for all you Disco fans out there. A classic guitar riff from the 70's.
Apologies for the guitar sound but my setup isn't really geared up for funk!

Main Riff

 E|--------3--3----------------------------------------------------------|
 B|--------3--3------3--3--3-----------------5---------------3-----------|
 G|------------------3--3--X-----------5--5--5------5--3--3--3---3-------|
 D|--3--5---------5--------5---3---5---5--5------5-----3--3---------3----|
 A|----------------------------------------------------------------------|
 E|----------------------------------------------------------------------|




 E|-----3--3-------------------------------------------------------------|
 B|-----3--3-------3--3--3-----------------5--------------3--------------|
 G|----------------3--3--X-----------5--5--5------5---3---3-----3--------|
 D|--5---------5---------5---3---5---5--5------5------3------------------|
 A|----------------------------------------------------------------------|
 E|----------------------------------------------------------------------|
                                                                  (Repeat)


Sound Sample

Instrumental Break

 E|-----------------------------------------------------------|
 B|------------------------------------------3----------------|
 G|---------------------3-----------------------3-------------|
 D|---5--5--5--5--5--5-----5--5--5--5--5--5-------------------|
 A|-----------------------------------------------------------|
 E|-----------------------------------------------------------|
      M- - - - - - - - - - - - - - - - - - - - - -



 E|-----------------------------------------------------------|
 B|-------------------------------------------3---------------|
 G|----------------------3-----------------------3------------|
 D|--5----5--5--5--5--5-----5--5--5--5--5--5--------3---------|
 A|-----------------------------------------------------------|
 E|-----------------------------------------------------------|
     M- - - - - - - - - - - - - - - - - - - - - - - -  (Repeat)
Return To Main Page