Sound Sample

 E|---------------------------------------|
 B|---------------------------------------|
 G|---------------------------------------|
 D|---------------------------------------|
 A|--0--0--2--3--2--0-----0--2------------|
 E|--------------------3--------0---------|
                                   (Repeat)


Sound Sample

   (Build Up Gradually)
 E|--0----0--0--0--0----0----0--0--0--0---|
 B|--5----5--5--5--5----5----5--5--5--5---|
 G|---------------------------------------|
 D|---------------------------------------|
 A|---------------------------------------|
 E|---------------------------------------|
                   (Repeat Throughout Solo)



Sound Sample

 E|--0----0--0--0--0----0----0--0--0--0---|
 B|--5----5--5--5--5----5----5--5--5--5---|
 G|---------------------------------------|
 D|---------------------------------------|
 A|---------------------------------------|
 E|---------------------------------------|



 E|--0----0--0--0--0----0----0--0--0--0---|
 B|--5----5--5--5--5----5----5--5--5--5---|
 G|---------------------------------------|
 D|---------------------------------------|
 A|---------------------------------------|
 E|---------------------------------------|


   Sl
 E|--0---0--0--0--0-----0--0--0--0--0-----|
 B|-17--17-17-17-17----17-17-17-17-17-----|
 G|---------------------------------------|
 D|---------------------------------------|
 A|---------------------------------------|
 E|---------------------------------------|
    


 E|--0---0--0--0--0-----0--0--0--0--0-----|
 B|-17--17-17-17-17----17-17-17-17-17-----|
 G|---------------------------------------|
 D|---------------------------------------|
 A|---------------------------------------|
 E|---------------------------------------|


  
 E|-15---0--0--0--0----15--0--0--0--0-----|
 B|-17--17-17-17-17----17-17-17-17-17-----|
 G|---------------------------------------|
 D|---------------------------------------|
 A|---------------------------------------|
 E|---------------------------------------|



 E|-15---0--15---0--15---0---0--15--------|
 B|-17--17--17--17--17--17--17--17---17---|
 G|---------------------------------------|
 D|---------------------------------------|
 A|---------------------------------------|
 E|---------------------------------------|


             BU (Vibrato) BU (Vibrato)
 E|--15--17--18-----------18--------------|
 B|---------------------------------------|
 G|---------------------------------------|
 D|---------------------------------------|
 A|---------------------------------------|
 E|---------------------------------------|
             (Hold)       (Hold)
  

     BU  BU  BU  BU  BD        Po
 E|--18--18--18--18--18--17--17--15-------|
 B|----------------------------------17---|
 G|---------------------------------------|
 D|---------------------------------------|
 A|---------------------------------------|
 E|---------------------------------------|


       Po                (Vibrato)
 E|-----------------------0---0--0--0--0--|
 B|--17--15------15--17--17--17-17-17-17--|
 G|----------16---------------------------|
 D|---------------------------------------|
 A|---------------------------------------|
 E|---------------------------------------|
                          (Continue & Fade)

Chords/Lyrics and useful tips.


Return To Main Page