Sound Sample
 E|--------------------------------------------|
 B|--------------------------------------------|
 G|--2--2--------2--2--------2--2-----7--------|
 D|--2--2--------2--2--------2--2-----7--------|
 A|--0--0--3--3--0--0--3--3--0--0--3--5--3-----|
 E|--------------------------------------------|
                                     (Repeat)
Sound Sample

Instrumental Break

 E|-----------------------------------------------------|
 B|-----------------------------------------------------|
 G|-----------------------------------------------------|
 D|-----------0--2--0-----------------0--2--3--2-----2--|
 A|--0--2--3-----------3--2--0--2--3--------------5-----|
 E|-----------------------------------------------------|
                                          H  Po



 E|-----------------------------------------------------|
 B|-----------------------------------------------------|
 G|-----------------------------------------------------|
 D|-----------0--2--0-----------------0--2--3--2-----2--|
 A|--0--2--3-----------3--2--0--2--3--------------5-----|
 E|-----------------------------------------------------|
                                          H  Po



 E|-----------------------------------------------------|
 B|-----------------------------------------------------|
 G|-----------------------------------------------------|
 D|--2--3--2--0--------------2--3--2--0-----------------|
 A|--------------2--3--2--0--------------2--3--2--0-----|
 E|-----------------------------------------------------|




 E|-----------------------------------------------------|
 B|-----------------------------------------------------|
 G|-----------------------------------------------------|
 D|--2--3--2--0--------------------------------------0--|
 A|--------------2--3--2--0--2--3--2-----0--0--2--3-----|
 E|-----------------------------------3-----------------|





 E|-----------------------------------------------------|
 B|-----------------------------------------------------|
 G|--------------------------2--2-----------------------|
 D|--2--0-----------------0--2--2-----------0--2--0-----|
 A|--------3--2--0--2--3-----0--0--0--2--3-----------3--|
 E|-----------------------------------------------------|





 E|-----------------------------------------------------|
 B|-----------------------------------------------------|
 G|-----------------2--2--------------------------------|
 D|--------------0--2--2--2--3--2--0--------------2--3--|
 A|--2--0--2--3-----0--0--------------2--3--2--0--------|
 E|-----------------------------------------------------|





 E|-----------------------------------------------------|
 B|-----------------------------------------------------|
 G|-----------------------------------------------------|
 D|--2--0--------------2--3--2--0-----------------------|
 A|--------2--3--2--0--------------2--3--2--0--2--3--2--|
 E|-----------------------------------------------------|





 E|-----------------------------------------------------|
 B|-----------------------------------------------------|
 G|-----------------------------------------------------|
 D|-----------------------------------------------------|
 A|-----0--0--0--0--0--0--0--2--3--3--3--0--3--7--7--0--|
 E|--3--------------------------------------------------|





 E|-----------------------------------------------------|
 B|-----------------------------------------------------|
 G|-----------------------------------------------------|
 D|--5--4--5--4--3--3--3--2--0--2--2--2--0--2--0-----0--|
 A|-----------------------------------------------3-----|
 E|-----------------------------------------------------|
                                          H  Po




 E|-----------------------------------------------------|
 B|-----------------------------------------------------|
 G|-----------------------------------------------------|
 D|-----------------------------------------------------|
 A|--2--3--7---9---7--7---9---7--7--9--7--7--9----------|
 E|--------5---5---5--5---5---5--5--5--5--5--5----------|
           Gradually Build Up-----------------


Sound Sample

Backing For Solo

     A
 E|------------------------------------------|
 B|------------------------------------------|
 G|------------------------------------------|
 D|------------------------------------------|
 A|--7---9---7---7---9---7---7---9--10--9----|
 E|--5---5---5---5---5---5---5---5---5--5----|


     C
 E|------------------------------------------|
 B|------------------------------------------|
 G|------------------------------------------|
 D|------------------------------------------|
 A|--10--12--10--10--12--10--10--12--13--12--|
 E|---8---8---8---8---8---8---8---8---8---8--|


      D
 E|------------------------------------------|
 B|------------------------------------------|
 G|------------------------------------------|
 D|------------------------------------------|
 A|--12--14--12--12--14--12--12--14--15--14--|
 E|--10--10--10--10--10--10--10--10--10--10--|



 E|------------------------------------------|
 B|------------------------------------------|
 G|------------------------------------------|
 D|-------------------5-4-3--2-1-0-----------|
 A|-----------5-4-3--------------------------|
 E|--5-4-3--------------------------7--6--0--|
                                Po


     A
 E|------------------------------------------|
 B|------------------------------------------|
 G|------------------------------------------|
 D|------------------------------------------|
 A|--7---9---7---7---9---7---7---9--10--9----|
 E|--5---5---5---5---5---5---5---5---5--5----|



     C
 E|------------------------------------------|
 B|------------------------------------------|
 G|------------------------------------------|
 D|------------------------------------------|
 A|--10--12--10--10--12--10--10--12--13--12--|
 E|---8---8---8---8---8---8---8---8---8---8--|



     D
 E|------------------------------------------|
 B|------------------------------------------|
 G|------------------------------------------|
 D|------------------------------------------|
 A|--12--14--12--12--14--12--12--14--15--14--|
 E|--10--10--10--10--10--10--10--10--10--10--|



                                

 E|------------------------------------------|
 B|------------------------------------------|
 G|--14--12--14--12--14--12--14--12--14--12--|
 D|--14--12--14--12--14--12--14--12--14--12--|
 A|--12--10--12--10--12--10--12--10--12--10--|
 E|------------------------------------------|
                                     (Repeat)

Return To Main Page