Sound Sample

 E|--------0--------0--------0-------0---2--2---|
 B|-----------0--------0--------0----0---0--0---|
 G|--3--4--------3--------2----------1---2--2---|
 D|----------------------------------2---1--1---|
 A|----------------------------------X---2--2---|
 E|----------------------------------X---0--0---|
      Sl





Sound Sample
 E|-----3--0------------------------------------|
 B|-----------3--0------------------------------|
 G|-----------------2--(4)--4--4--4--2--0-------|
 D|---------------------------------------------|
 A|--2-------------------------------------2----|
 E|--0-------------------------------------0----|
                     Sl            Sl



 E|--3--0---------------------------------------|
 B|--------3--0---------------------------------|
 G|--------------2--(4)--4--4--4--2--0----------|
 D|---------------------------------------------|
 A|--------------------------------------2------|
 E|--------------------------------------0------|
                  Sl            Sl



 E|--3--0---------------------------------------|
 B|--------3--0---------------------3--3--3-----|
 G|--------------2--(4)--4--4--4----4--4--4-----|
 D|---------------------------------------------|
 A|---------------------------------------------|
 E|---------------------------------------------|
                  Sl



 E|--3--4--4--3--4--4--3--4--4--4---------------|
 B|--2--3--3--2--3--3--2--3--3--3----0----------|
 G|--3--4--4--3--4--4--3--4--4--4----0----------|
 D|--------------------------------------2--2---|
 A|--------------------------------------0--0---|
 E|---------------------------------------------|
      Sl       Sl       Sl               M  M



 E|---------------------------------------------|
 B|---------------------------------------------|
 G|---------------------------------------------|
 D|--4--4--2--2--4--4--2--2--4--4--2--2--4--4---|
 A|--0--0--0--0--0--0--0--0--0--0--0--0--0--0---|
 E|---------------------------------------------|
     M  M  M  M  M  M  M  M  M  M  M  M  M  M



 E|---------------------------------------------|
 B|---------------------------------------------|
 G|---------------------------------------------|
 D|---------------------------------------------|
 A|--2--2--4--4--2--2--4--4--2--2--4--4--2--2---|
 E|--0--0--0--0--0--0--0--0--0--0--0--0--0--0---|
     M  M  M  M  M  M  M  M  M  M  M  M  M  M


 
 E|------------2----2-----0-----0-----3--0------|
 B|-----------------------------------2--2--0---|
 G|---------------------------------------------|
 D|--------------------1-----1-----2------------|
 A|--4--4---2----2------------------------------|
 E|--0--0---------------------------------------|
     M  M



 E|-----0--0--------0-------0-------0------0---2--2---|
 B|--2-----0----------0-------0-------0----0---0--0---|
 G|-----------3--4-------3-------2---------1---2--2---|
 D|----------------------------------------2---1--1---|
 A|----------------------------------------X---2--2---|
 E|----------------------------------------X---0--0---|
               Sl                    


M - Mute The String. Place the palm of your right hand lightly over the strings near the bridge of the guitar.

Sl - Slide. Play the first note then slide to the next note.
Return To Main Page